ISO-10303-21;
HEADER;
FILE_DESCRIPTION(('CATIA V5 STEP Exchange','CAx-IF Rec.Pracs.--- Model Styling and Organization---1.5--- 2016-08-15','CAx-IF Rec.Pracs.---Supplemental Geometry---1.0---2011-11-01','CAx-IF Rec.Pracs.--- Composite Materials ---1.1---2010-07-15'),'2;1');

FILE_NAME('T:\\Dunnage Engineering Jobs\\DEI LIBRARY\\WEB SHEETS IN INCHES\\DE1129-.25.stp','2024-05-22T15:01:18+00:00',('none'),('none'),'CATIA Version 5-6 Release 2022 SP3','CATIA V5 STEP AP214 Edition 3 v2','none');

FILE_SCHEMA(('AUTOMOTIVE_DESIGN { 1 0 10303 214 3 1 1 1 }'));

ENDSEC;
DATA;
#5=PRODUCT('DE1129-.25','','',(#2)) ;
#2=PRODUCT_CONTEXT(' ',#1,'mechanical') ;
#1=APPLICATION_CONTEXT('automotive design') ;
#10=PRODUCT_DEFINITION('',' ',#6,#3) ;
#3=PRODUCT_DEFINITION_CONTEXT('part definition',#1,' ') ;
#11=PRODUCT_DEFINITION_SHAPE(' ',' ',#10) ;
#16=DIMENSIONAL_EXPONENTS(1.,0.,0.,0.,0.,0.,0.) ;
#559=MECHANICAL_DESIGN_GEOMETRIC_PRESENTATION_REPRESENTATION(' ',(#32),#19) ;
#22=SHAPE_REPRESENTATION(' ',(#21),#19) ;
#21=AXIS2_PLACEMENT_3D(' ',#20,$,$) ;
#37=AXIS2_PLACEMENT_3D('Plane Axis2P3D',#34,#35,#36) ;
#108=AXIS2_PLACEMENT_3D('Plane Axis2P3D',#105,#106,#107) ;
#179=AXIS2_PLACEMENT_3D('Cylinder Axis2P3D',#176,#177,#178) ;
#192=AXIS2_PLACEMENT_3D('Circle Axis2P3D',#190,#191,$) ;
#206=AXIS2_PLACEMENT_3D('Circle Axis2P3D',#204,#205,$) ;
#219=AXIS2_PLACEMENT_3D('Torus Axis2P3D',#216,#217,#218) ;
#223=AXIS2_PLACEMENT_3D('Circle Axis2P3D',#221,#222,$) ;
#230=AXIS2_PLACEMENT_3D('Circle Axis2P3D',#228,#229,$) ;
#237=AXIS2_PLACEMENT_3D('Circle Axis2P3D',#235,#236,$) ;
#250=AXIS2_PLACEMENT_3D('Torus Axis2P3D',#247,#248,#249) ;
#254=AXIS2_PLACEMENT_3D('Circle Axis2P3D',#252,#253,$) ;
#261=AXIS2_PLACEMENT_3D('Circle Axis2P3D',#259,#260,$) ;
#268=AXIS2_PLACEMENT_3D('Circle Axis2P3D',#266,#267,$) ;
#280=AXIS2_PLACEMENT_3D('Circle Axis2P3D',#278,#279,$) ;
#285=AXIS2_PLACEMENT_3D('Circle Axis2P3D',#283,#284,$) ;
#298=AXIS2_PLACEMENT_3D('Torus Axis2P3D',#295,#296,#297) ;
#302=AXIS2_PLACEMENT_3D('Circle Axis2P3D',#300,#301,$) ;
#315=AXIS2_PLACEMENT_3D('Torus Axis2P3D',#312,#313,#314) ;
#319=AXIS2_PLACEMENT_3D('Circle Axis2P3D',#317,#318,$) ;
#332=AXIS2_PLACEMENT_3D('Plane Axis2P3D',#329,#330,#331) ;
#342=AXIS2_PLACEMENT_3D('Cylinder Axis2P3D',#339,#340,#341) ;
#346=AXIS2_PLACEMENT_3D('Circle Axis2P3D',#344,#345,$) ;
#360=AXIS2_PLACEMENT_3D('Circle Axis2P3D',#358,#359,$) ;
#372=AXIS2_PLACEMENT_3D('Circle Axis2P3D',#370,#371,$) ;
#377=AXIS2_PLACEMENT_3D('Circle Axis2P3D',#375,#376,$) ;
#389=AXIS2_PLACEMENT_3D('Circle Axis2P3D',#387,#388,$) ;
#403=AXIS2_PLACEMENT_3D('Circle Axis2P3D',#401,#402,$) ;
#415=AXIS2_PLACEMENT_3D('Circle Axis2P3D',#413,#414,$) ;
#420=AXIS2_PLACEMENT_3D('Circle Axis2P3D',#418,#419,$) ;
#433=AXIS2_PLACEMENT_3D('Plane Axis2P3D',#430,#431,#432) ;
#437=AXIS2_PLACEMENT_3D('Circle Axis2P3D',#435,#436,$) ;
#444=AXIS2_PLACEMENT_3D('Circle Axis2P3D',#442,#443,$) ;
#458=AXIS2_PLACEMENT_3D('Circle Axis2P3D',#456,#457,$) ;
#465=AXIS2_PLACEMENT_3D('Circle Axis2P3D',#463,#464,$) ;
#480=AXIS2_PLACEMENT_3D('Cone Axis2P3D',#477,#478,#479) ;
#491=AXIS2_PLACEMENT_3D('Circle Axis2P3D',#489,#490,$) ;
#513=AXIS2_PLACEMENT_3D('Cone Axis2P3D',#510,#511,#512) ;
#517=AXIS2_PLACEMENT_3D('Circle Axis2P3D',#515,#516,$) ;
#532=AXIS2_PLACEMENT_3D('Plane Axis2P3D',#529,#530,#531) ;
#542=AXIS2_PLACEMENT_3D('Plane Axis2P3D',#539,#540,#541) ;
#20=CARTESIAN_POINT(' ',(0.,0.,0.)) ;
#34=CARTESIAN_POINT('Axis2P3D Location',(-0.832660179439,-0.156,0.)) ;
#39=CARTESIAN_POINT('Line Origine',(-0.0537494186015,-0.156,-0.0885)) ;
#43=CARTESIAN_POINT('Vertex',(-0.0537494186015,-0.156,0.)) ;
#45=CARTESIAN_POINT('Vertex',(-0.0537494186015,-0.156,-0.177)) ;
#48=CARTESIAN_POINT('Line Origine',(-0.103548633323,-0.156,-0.177)) ;
#52=CARTESIAN_POINT('Vertex',(-0.153347848045,-0.156,-0.177)) ;
#56=CARTESIAN_POINT('Control Point',(0.153347848045,-0.156,-0.177)) ;
#57=CARTESIAN_POINT('Control Point',(0.135661214694,-0.156,-0.189398661319)) ;
#58=CARTESIAN_POINT('Control Point',(0.12043223776,-0.156,-0.199165373906)) ;
#59=CARTESIAN_POINT('Control Point',(0.106816629441,-0.156,-0.207141177676)) ;
#60=CARTESIAN_POINT('Control Point',(0.082743164112,-0.156,-0.219854464935)) ;
#61=CARTESIAN_POINT('Control Point',(0.0619645073938,-0.156,-0.228260309241)) ;
#62=CARTESIAN_POINT('Control Point',(0.0524893616791,-0.156,-0.231507895266)) ;
#63=CARTESIAN_POINT('Control Point',(0.0275517105401,-0.156,-0.238496819935)) ;
#64=CARTESIAN_POINT('Control Point',(0.00458982474668,-0.156,-0.240685083065)) ;
#65=CARTESIAN_POINT('Control Point',(-0.00978990023796,-0.156,-0.240448124291)) ;
#66=CARTESIAN_POINT('Control Point',(-0.0345587323063,-0.156,-0.237278514938)) ;
#67=CARTESIAN_POINT('Control Point',(-0.0619995709319,-0.156,-0.228388025641)) ;
#68=CARTESIAN_POINT('Control Point',(-0.0738047725927,-0.156,-0.223706484139)) ;
#69=CARTESIAN_POINT('Control Point',(-0.0946446551224,-0.156,-0.213966093706)) ;
#70=CARTESIAN_POINT('Control Point',(-0.119391039331,-0.156,-0.199542933113)) ;
#71=CARTESIAN_POINT('Control Point',(-0.129696658294,-0.156,-0.193130713743)) ;
#72=CARTESIAN_POINT('Control Point',(-0.140915042942,-0.156,-0.185715629292)) ;
#73=CARTESIAN_POINT('Control Point',(-0.153347848045,-0.156,-0.177)) ;
#74=CARTESIAN_POINT('Vertex',(0.153347848045,-0.156,-0.177)) ;
#77=CARTESIAN_POINT('Line Origine',(0.103548633323,-0.156,-0.177)) ;
#81=CARTESIAN_POINT('Vertex',(0.0537494186015,-0.156,-0.177)) ;
#84=CARTESIAN_POINT('Line Origine',(0.0537494186015,-0.156,-0.0885)) ;
#88=CARTESIAN_POINT('Vertex',(0.0537494186015,-0.156,0.)) ;
#91=CARTESIAN_POINT('Line Origine',(0.,-0.156,0.)) ;
#105=CARTESIAN_POINT('Axis2P3D Location',(-0.832660179439,0.156,0.)) ;
#110=CARTESIAN_POINT('Line Origine',(0.,0.156,0.)) ;
#114=CARTESIAN_POINT('Vertex',(0.0537494186015,0.156,0.)) ;
#116=CARTESIAN_POINT('Vertex',(-0.0537494186015,0.156,0.)) ;
#119=CARTESIAN_POINT('Line Origine',(0.0537494186015,0.156,-0.0885)) ;
#123=CARTESIAN_POINT('Vertex',(0.0537494186015,0.156,-0.177)) ;
#126=CARTESIAN_POINT('Line Origine',(0.103548633323,0.156,-0.177)) ;
#130=CARTESIAN_POINT('Vertex',(0.153347848045,0.156,-0.177)) ;
#134=CARTESIAN_POINT('Control Point',(-0.153347848045,0.156,-0.177)) ;
#135=CARTESIAN_POINT('Control Point',(-0.135661214689,0.156,-0.189398661322)) ;
#136=CARTESIAN_POINT('Control Point',(-0.120432237751,0.156,-0.199165373911)) ;
#137=CARTESIAN_POINT('Control Point',(-0.106816629433,0.156,-0.207141177681)) ;
#138=CARTESIAN_POINT('Control Point',(-0.0827431640996,0.156,-0.219854464941)) ;
#139=CARTESIAN_POINT('Control Point',(-0.0619645073787,0.156,-0.228260309246)) ;
#140=CARTESIAN_POINT('Control Point',(-0.0524893616655,0.156,-0.231507895271)) ;
#141=CARTESIAN_POINT('Control Point',(-0.0275517105263,0.156,-0.238496819937)) ;
#142=CARTESIAN_POINT('Control Point',(-0.00458982473065,0.156,-0.240685083065)) ;
#143=CARTESIAN_POINT('Control Point',(0.00978990025356,0.156,-0.24044812429)) ;
#144=CARTESIAN_POINT('Control Point',(0.0345587323226,0.156,-0.237278514935)) ;
#145=CARTESIAN_POINT('Control Point',(0.0619995709498,0.156,-0.228388025634)) ;
#146=CARTESIAN_POINT('Control Point',(0.0738047726104,0.156,-0.223706484131)) ;
#147=CARTESIAN_POINT('Control Point',(0.0946446551377,0.156,-0.213966093698)) ;
#148=CARTESIAN_POINT('Control Point',(0.119391039344,0.156,-0.199542933104)) ;
#149=CARTESIAN_POINT('Control Point',(0.129696658302,0.156,-0.193130713737)) ;
#150=CARTESIAN_POINT('Control Point',(0.140915042947,0.156,-0.185715629289)) ;
#151=CARTESIAN_POINT('Control Point',(0.153347848045,0.156,-0.177)) ;
#152=CARTESIAN_POINT('Vertex',(-0.153347848045,0.156,-0.177)) ;
#155=CARTESIAN_POINT('Line Origine',(-0.103548633323,0.156,-0.177)) ;
#159=CARTESIAN_POINT('Vertex',(-0.0537494186015,0.156,-0.177)) ;
#162=CARTESIAN_POINT('Line Origine',(-0.0537494186015,0.156,-0.0885)) ;
#176=CARTESIAN_POINT('Axis2P3D Location',(0.,0.,0.125)) ;
#181=CARTESIAN_POINT('Line Origine',(0.75,0.,0.125)) ;
#185=CARTESIAN_POINT('Vertex',(0.75,-8.49830834647E-16,0.04)) ;
#187=CARTESIAN_POINT('Vertex',(0.75,-8.49830834647E-16,0.21)) ;
#190=CARTESIAN_POINT('Axis2P3D Location',(0.,0.,0.04)) ;
#194=CARTESIAN_POINT('Vertex',(-0.75,9.18485099361E-17,0.04)) ;
#197=CARTESIAN_POINT('Line Origine',(-0.75,9.18485099361E-17,0.125)) ;
#201=CARTESIAN_POINT('Vertex',(-0.75,9.18485099361E-17,0.21)) ;
#204=CARTESIAN_POINT('Axis2P3D Location',(0.,0.,0.21)) ;
#216=CARTESIAN_POINT('Axis2P3D Location',(-1.04902962957E-16,6.99353086378E-17,0.21)) ;
#221=CARTESIAN_POINT('Axis2P3D Location',(0.71,-8.89052611058E-18,0.21)) ;
#225=CARTESIAN_POINT('Vertex',(0.71,-2.37560405134E-16,0.25)) ;
#228=CARTESIAN_POINT('Axis2P3D Location',(-0.71,6.99353086378E-17,0.21)) ;
#232=CARTESIAN_POINT('Vertex',(-0.71,-6.07317314902E-16,0.25)) ;
#235=CARTESIAN_POINT('Axis2P3D Location',(-1.04902962957E-16,6.99353086378E-17,0.25)) ;
#247=CARTESIAN_POINT('Axis2P3D Location',(-1.04902962957E-16,6.99353086378E-17,0.04)) ;
#252=CARTESIAN_POINT('Axis2P3D Location',(0.71,-8.7716360859E-17,0.04)) ;
#256=CARTESIAN_POINT('Vertex',(0.71,-2.37560405134E-16,0.)) ;
#259=CARTESIAN_POINT('Axis2P3D Location',(-1.04902962957E-16,6.99353086378E-17,0.)) ;
#263=CARTESIAN_POINT('Vertex',(-0.71,-6.07317314902E-16,0.)) ;
#266=CARTESIAN_POINT('Axis2P3D Location',(-0.71,6.99353086378E-17,0.04)) ;
#278=CARTESIAN_POINT('Axis2P3D Location',(0.,0.,0.04)) ;
#283=CARTESIAN_POINT('Axis2P3D Location',(0.,0.,0.21)) ;
#295=CARTESIAN_POINT('Axis2P3D Location',(6.99353086378E-17,6.99353086378E-17,0.21)) ;
#300=CARTESIAN_POINT('Axis2P3D Location',(6.99353086378E-17,6.99353086378E-17,0.25)) ;
#312=CARTESIAN_POINT('Axis2P3D Location',(6.99353086378E-17,6.99353086378E-17,0.04)) ;
#317=CARTESIAN_POINT('Axis2P3D Location',(6.99353086378E-17,6.99353086378E-17,0.)) ;
#329=CARTESIAN_POINT('Axis2P3D Location',(0.,0.,0.25)) ;
#339=CARTESIAN_POINT('Axis2P3D Location',(0.,0.,-0.0885)) ;
#344=CARTESIAN_POINT('Axis2P3D Location',(0.,0.,0.)) ;
#348=CARTESIAN_POINT('Vertex',(0.165,0.,0.)) ;
#351=CARTESIAN_POINT('Line Origine',(0.165,4.04133443719E-17,-0.0885)) ;
#355=CARTESIAN_POINT('Vertex',(0.165,0.,-0.177)) ;
#358=CARTESIAN_POINT('Axis2P3D Location',(0.,0.,-0.177)) ;
#370=CARTESIAN_POINT('Axis2P3D Location',(0.,0.,-0.177)) ;
#375=CARTESIAN_POINT('Axis2P3D Location',(0.,0.,0.)) ;
#387=CARTESIAN_POINT('Axis2P3D Location',(0.,0.,0.)) ;
#391=CARTESIAN_POINT('Vertex',(-0.165,-2.02066721859E-17,0.)) ;
#394=CARTESIAN_POINT('Line Origine',(-0.165,-2.02066721859E-17,-0.0885)) ;
#398=CARTESIAN_POINT('Vertex',(-0.165,-2.02066721859E-17,-0.177)) ;
#401=CARTESIAN_POINT('Axis2P3D Location',(0.,0.,-0.177)) ;
#413=CARTESIAN_POINT('Axis2P3D Location',(0.,0.,-0.177)) ;
#418=CARTESIAN_POINT('Axis2P3D Location',(0.,0.,0.)) ;
#430=CARTESIAN_POINT('Axis2P3D Location',(0.,0.,-0.177)) ;
#435=CARTESIAN_POINT('Axis2P3D Location',(0.,0.,-0.177)) ;
#439=CARTESIAN_POINT('Vertex',(0.21875,0.,-0.177)) ;
#442=CARTESIAN_POINT('Axis2P3D Location',(0.,0.,-0.177)) ;
#456=CARTESIAN_POINT('Axis2P3D Location',(0.,0.,-0.177)) ;
#460=CARTESIAN_POINT('Vertex',(-0.21875,-2.67891487313E-17,-0.177)) ;
#463=CARTESIAN_POINT('Axis2P3D Location',(0.,0.,-0.177)) ;
#477=CARTESIAN_POINT('Axis2P3D Location',(-7.2849279831E-19,-2.17847106406E-19,-0.39575)) ;
#482=CARTESIAN_POINT('Line Origine',(0.125,1.85308947364E-16,-0.27075)) ;
#486=CARTESIAN_POINT('Vertex',(0.03125,8.16025523267E-18,-0.3645)) ;
#489=CARTESIAN_POINT('Axis2P3D Location',(4.37095678986E-18,1.30708263844E-18,-0.3645)) ;
#493=CARTESIAN_POINT('Vertex',(-0.03125,1.05569792985E-17,-0.3645)) ;
#496=CARTESIAN_POINT('Line Origine',(-0.125,7.19245817683E-18,-0.27075)) ;
#510=CARTESIAN_POINT('Axis2P3D Location',(-6.19218878564E-18,6.19218878564E-18,-0.39575)) ;
#515=CARTESIAN_POINT('Axis2P3D Location',(-6.55643518479E-18,-2.18547839493E-18,-0.3645)) ;
#529=CARTESIAN_POINT('Axis2P3D Location',(0.,0.,-0.3645)) ;
#539=CARTESIAN_POINT('Axis2P3D Location',(0.,0.,0.)) ;
#35=DIRECTION('Axis2P3D Direction',(-0.,1.,0.)) ;
#36=DIRECTION('Axis2P3D XDirection',(1.,0.,0.)) ;
#40=DIRECTION('Vector Direction',(0.,0.,-1.)) ;
#49=DIRECTION('Vector Direction',(1.,0.,0.)) ;
#78=DIRECTION('Vector Direction',(1.,0.,0.)) ;
#85=DIRECTION('Vector Direction',(0.,0.,1.)) ;
#92=DIRECTION('Vector Direction',(1.,0.,0.)) ;
#106=DIRECTION('Axis2P3D Direction',(-0.,1.,0.)) ;
#107=DIRECTION('Axis2P3D XDirection',(1.,0.,0.)) ;
#111=DIRECTION('Vector Direction',(1.,0.,0.)) ;
#120=DIRECTION('Vector Direction',(0.,0.,-1.)) ;
#127=DIRECTION('Vector Direction',(1.,0.,0.)) ;
#156=DIRECTION('Vector Direction',(1.,0.,0.)) ;
#163=DIRECTION('Vector Direction',(0.,0.,-1.)) ;
#177=DIRECTION('Axis2P3D Direction',(0.,0.,1.)) ;
#178=DIRECTION('Axis2P3D XDirection',(1.,0.,0.)) ;
#182=DIRECTION('Vector Direction',(0.,0.,1.)) ;
#191=DIRECTION('Axis2P3D Direction',(0.,0.,1.)) ;
#198=DIRECTION('Vector Direction',(0.,0.,1.)) ;
#205=DIRECTION('Axis2P3D Direction',(0.,0.,1.)) ;
#217=DIRECTION('Axis2P3D Direction',(-0.,0.,1.)) ;
#218=DIRECTION('Axis2P3D XDirection',(1.,-2.79741234551E-16,0.)) ;
#222=DIRECTION('Axis2P3D Direction',(-1.11022302463E-16,-1.,0.)) ;
#229=DIRECTION('Axis2P3D Direction',(0.,1.,0.)) ;
#236=DIRECTION('Axis2P3D Direction',(-0.,0.,1.)) ;
#248=DIRECTION('Axis2P3D Direction',(-0.,0.,1.)) ;
#249=DIRECTION('Axis2P3D XDirection',(1.,-2.46251086753E-16,0.)) ;
#253=DIRECTION('Axis2P3D Direction',(-2.22044604925E-16,-1.,0.)) ;
#260=DIRECTION('Axis2P3D Direction',(-0.,0.,1.)) ;
#267=DIRECTION('Axis2P3D Direction',(0.,1.,0.)) ;
#279=DIRECTION('Axis2P3D Direction',(0.,0.,1.)) ;
#284=DIRECTION('Axis2P3D Direction',(0.,0.,1.)) ;
#296=DIRECTION('Axis2P3D Direction',(0.,-0.,1.)) ;
#297=DIRECTION('Axis2P3D XDirection',(-1.,-1.58520032912E-15,0.)) ;
#301=DIRECTION('Axis2P3D Direction',(0.,-0.,1.)) ;
#313=DIRECTION('Axis2P3D Direction',(0.,-0.,1.)) ;
#314=DIRECTION('Axis2P3D XDirection',(-1.,-1.62525717257E-15,0.)) ;
#318=DIRECTION('Axis2P3D Direction',(0.,-0.,1.)) ;
#330=DIRECTION('Axis2P3D Direction',(0.,0.,1.)) ;
#331=DIRECTION('Axis2P3D XDirection',(1.,0.,0.)) ;
#340=DIRECTION('Axis2P3D Direction',(0.,0.,-1.)) ;
#341=DIRECTION('Axis2P3D XDirection',(1.,0.,0.)) ;
#345=DIRECTION('Axis2P3D Direction',(0.,0.,-1.)) ;
#352=DIRECTION('Vector Direction',(0.,0.,-1.)) ;
#359=DIRECTION('Axis2P3D Direction',(0.,0.,-1.)) ;
#371=DIRECTION('Axis2P3D Direction',(0.,0.,-1.)) ;
#376=DIRECTION('Axis2P3D Direction',(0.,0.,-1.)) ;
#388=DIRECTION('Axis2P3D Direction',(0.,0.,-1.)) ;
#395=DIRECTION('Vector Direction',(0.,0.,-1.)) ;
#402=DIRECTION('Axis2P3D Direction',(0.,0.,-1.)) ;
#414=DIRECTION('Axis2P3D Direction',(0.,0.,-1.)) ;
#419=DIRECTION('Axis2P3D Direction',(0.,0.,-1.)) ;
#431=DIRECTION('Axis2P3D Direction',(0.,0.,-1.)) ;
#432=DIRECTION('Axis2P3D XDirection',(1.,0.,0.)) ;
#436=DIRECTION('Axis2P3D Direction',(0.,0.,-1.)) ;
#443=DIRECTION('Axis2P3D Direction',(0.,0.,-1.)) ;
#457=DIRECTION('Axis2P3D Direction',(0.,0.,-1.)) ;
#464=DIRECTION('Axis2P3D Direction',(0.,0.,-1.)) ;
#478=DIRECTION('Axis2P3D Direction',(1.63182386822E-16,4.87977518349E-17,1.)) ;
#479=DIRECTION('Axis2P3D XDirection',(-0.5,-0.866025403784,1.31708901597E-16)) ;
#483=DIRECTION('Vector Direction',(0.707106781187,1.05650766153E-15,0.707106781187)) ;
#490=DIRECTION('Axis2P3D Direction',(-1.01256743748E-16,5.84606082601E-17,-1.)) ;
#497=DIRECTION('Vector Direction',(-0.707106781187,2.62632660654E-17,0.707106781187)) ;
#511=DIRECTION('Axis2P3D Direction',(-1.1655884773E-17,-2.68085349778E-16,1.)) ;
#512=DIRECTION('Axis2P3D XDirection',(1.,2.39778201044E-16,0.)) ;
#516=DIRECTION('Axis2P3D Direction',(-6.42810228961E-32,2.68085349778E-16,-1.)) ;
#530=DIRECTION('Axis2P3D Direction',(0.,0.,-1.)) ;
#531=DIRECTION('Axis2P3D XDirection',(1.,0.,0.)) ;
#540=DIRECTION('Axis2P3D Direction',(0.,0.,1.)) ;
#541=DIRECTION('Axis2P3D XDirection',(1.,0.,0.)) ;
#8=PRODUCT_RELATED_PRODUCT_CATEGORY('part',$,(#5)) ;
#7=PRODUCT_CATEGORY('part','specification') ;
#32=STYLED_ITEM(' ',(#31),#24) ;
#31=PRESENTATION_STYLE_ASSIGNMENT((#30)) ;
#30=SURFACE_STYLE_USAGE(.BOTH.,#29) ;
#29=SURFACE_SIDE_STYLE(' ',(#28)) ;
#28=SURFACE_STYLE_FILL_AREA(#27) ;
#27=FILL_AREA_STYLE(' ',(#26)) ;
#26=FILL_AREA_STYLE_COLOUR(' ',#25) ;
#41=VECTOR('Line Direction',#40,0.0393700787402) ;
#50=VECTOR('Line Direction',#49,0.0393700787402) ;
#79=VECTOR('Line Direction',#78,0.0393700787402) ;
#86=VECTOR('Line Direction',#85,0.0393700787402) ;
#93=VECTOR('Line Direction',#92,0.0393700787402) ;
#112=VECTOR('Line Direction',#111,0.0393700787402) ;
#121=VECTOR('Line Direction',#120,0.0393700787402) ;
#128=VECTOR('Line Direction',#127,0.0393700787402) ;
#157=VECTOR('Line Direction',#156,0.0393700787402) ;
#164=VECTOR('Line Direction',#163,0.0393700787402) ;
#183=VECTOR('Line Direction',#182,0.0393700787402) ;
#199=VECTOR('Line Direction',#198,0.0393700787402) ;
#353=VECTOR('Line Direction',#352,0.0393700787402) ;
#396=VECTOR('Line Direction',#395,0.0393700787402) ;
#484=VECTOR('Line Direction',#483,0.0393700787402) ;
#498=VECTOR('Line Direction',#497,0.0393700787402) ;
#18=UNCERTAINTY_MEASURE_WITH_UNIT(LENGTH_MEASURE(0.000196850393701),#17,'distance_accuracy_value','CONFUSED CURVE UNCERTAINTY') ;
#558=SHAPE_REPRESENTATION_RELATIONSHIP(' ',' ',#22,#557) ;
#97=ORIENTED_EDGE('',*,*,#47,.T.) ;
#98=ORIENTED_EDGE('',*,*,#54,.F.) ;
#99=ORIENTED_EDGE('',*,*,#76,.F.) ;
#100=ORIENTED_EDGE('',*,*,#83,.F.) ;
#101=ORIENTED_EDGE('',*,*,#90,.T.) ;
#102=ORIENTED_EDGE('',*,*,#95,.F.) ;
#168=ORIENTED_EDGE('',*,*,#118,.F.) ;
#169=ORIENTED_EDGE('',*,*,#125,.T.) ;
#170=ORIENTED_EDGE('',*,*,#132,.T.) ;
#171=ORIENTED_EDGE('',*,*,#154,.F.) ;
#172=ORIENTED_EDGE('',*,*,#161,.T.) ;
#173=ORIENTED_EDGE('',*,*,#166,.F.) ;
#210=ORIENTED_EDGE('',*,*,#189,.F.) ;
#211=ORIENTED_EDGE('',*,*,#196,.T.) ;
#212=ORIENTED_EDGE('',*,*,#203,.T.) ;
#213=ORIENTED_EDGE('',*,*,#208,.F.) ;
#241=ORIENTED_EDGE('',*,*,#227,.T.) ;
#242=ORIENTED_EDGE('',*,*,#208,.T.) ;
#243=ORIENTED_EDGE('',*,*,#234,.F.) ;
#244=ORIENTED_EDGE('',*,*,#239,.F.) ;
#272=ORIENTED_EDGE('',*,*,#258,.T.) ;
#273=ORIENTED_EDGE('',*,*,#265,.T.) ;
#274=ORIENTED_EDGE('',*,*,#270,.F.) ;
#275=ORIENTED_EDGE('',*,*,#196,.F.) ;
#289=ORIENTED_EDGE('',*,*,#203,.F.) ;
#290=ORIENTED_EDGE('',*,*,#282,.T.) ;
#291=ORIENTED_EDGE('',*,*,#189,.T.) ;
#292=ORIENTED_EDGE('',*,*,#287,.F.) ;
#306=ORIENTED_EDGE('',*,*,#234,.T.) ;
#307=ORIENTED_EDGE('',*,*,#287,.T.) ;
#308=ORIENTED_EDGE('',*,*,#227,.F.) ;
#309=ORIENTED_EDGE('',*,*,#304,.F.) ;
#323=ORIENTED_EDGE('',*,*,#270,.T.) ;
#324=ORIENTED_EDGE('',*,*,#321,.T.) ;
#325=ORIENTED_EDGE('',*,*,#258,.F.) ;
#326=ORIENTED_EDGE('',*,*,#282,.F.) ;
#335=ORIENTED_EDGE('',*,*,#304,.T.) ;
#336=ORIENTED_EDGE('',*,*,#239,.T.) ;
#364=ORIENTED_EDGE('',*,*,#350,.T.) ;
#365=ORIENTED_EDGE('',*,*,#357,.T.) ;
#366=ORIENTED_EDGE('',*,*,#362,.F.) ;
#367=ORIENTED_EDGE('',*,*,#125,.F.) ;
#381=ORIENTED_EDGE('',*,*,#374,.F.) ;
#382=ORIENTED_EDGE('',*,*,#357,.F.) ;
#383=ORIENTED_EDGE('',*,*,#379,.T.) ;
#384=ORIENTED_EDGE('',*,*,#90,.F.) ;
#407=ORIENTED_EDGE('',*,*,#393,.T.) ;
#408=ORIENTED_EDGE('',*,*,#400,.T.) ;
#409=ORIENTED_EDGE('',*,*,#405,.F.) ;
#410=ORIENTED_EDGE('',*,*,#47,.F.) ;
#424=ORIENTED_EDGE('',*,*,#417,.F.) ;
#425=ORIENTED_EDGE('',*,*,#400,.F.) ;
#426=ORIENTED_EDGE('',*,*,#422,.T.) ;
#427=ORIENTED_EDGE('',*,*,#166,.T.) ;
#448=ORIENTED_EDGE('',*,*,#362,.T.) ;
#449=ORIENTED_EDGE('',*,*,#374,.T.) ;
#450=ORIENTED_EDGE('',*,*,#83,.T.) ;
#451=ORIENTED_EDGE('',*,*,#441,.F.) ;
#452=ORIENTED_EDGE('',*,*,#446,.F.) ;
#453=ORIENTED_EDGE('',*,*,#132,.F.) ;
#469=ORIENTED_EDGE('',*,*,#54,.T.) ;
#470=ORIENTED_EDGE('',*,*,#405,.T.) ;
#471=ORIENTED_EDGE('',*,*,#417,.T.) ;
#472=ORIENTED_EDGE('',*,*,#161,.F.) ;
#473=ORIENTED_EDGE('',*,*,#462,.F.) ;
#474=ORIENTED_EDGE('',*,*,#467,.F.) ;
#502=ORIENTED_EDGE('',*,*,#154,.T.) ;
#503=ORIENTED_EDGE('',*,*,#446,.T.) ;
#504=ORIENTED_EDGE('',*,*,#488,.F.) ;
#505=ORIENTED_EDGE('',*,*,#495,.F.) ;
#506=ORIENTED_EDGE('',*,*,#500,.T.) ;
#507=ORIENTED_EDGE('',*,*,#462,.T.) ;
#521=ORIENTED_EDGE('',*,*,#76,.T.) ;
#522=ORIENTED_EDGE('',*,*,#467,.T.) ;
#523=ORIENTED_EDGE('',*,*,#500,.F.) ;
#524=ORIENTED_EDGE('',*,*,#519,.F.) ;
#525=ORIENTED_EDGE('',*,*,#488,.T.) ;
#526=ORIENTED_EDGE('',*,*,#441,.T.) ;
#535=ORIENTED_EDGE('',*,*,#495,.T.) ;
#536=ORIENTED_EDGE('',*,*,#519,.T.) ;
#545=ORIENTED_EDGE('',*,*,#265,.F.) ;
#546=ORIENTED_EDGE('',*,*,#321,.F.) ;
#549=ORIENTED_EDGE('',*,*,#379,.F.) ;
#550=ORIENTED_EDGE('',*,*,#350,.F.) ;
#551=ORIENTED_EDGE('',*,*,#118,.T.) ;
#552=ORIENTED_EDGE('',*,*,#422,.F.) ;
#553=ORIENTED_EDGE('',*,*,#393,.F.) ;
#554=ORIENTED_EDGE('',*,*,#95,.T.) ;
#555=FACE_BOUND('',#548,.T.) ;
#33=CLOSED_SHELL('Closed Shell',(#104,#175,#215,#246,#277,#294,#311,#328,#338,#369,#386,#412,#429,#455,#476,#509,#528,#538,#556)) ;
#557=ADVANCED_BREP_SHAPE_REPRESENTATION('NONE',(#24),#19) ;
#104=ADVANCED_FACE('MASTER MODEL',(#103),#38,.F.) ;
#175=ADVANCED_FACE('MASTER MODEL',(#174),#109,.T.) ;
#215=ADVANCED_FACE('MASTER MODEL',(#214),#180,.T.) ;
#246=ADVANCED_FACE('MASTER MODEL',(#245),#220,.T.) ;
#277=ADVANCED_FACE('MASTER MODEL',(#276),#251,.T.) ;
#294=ADVANCED_FACE('MASTER MODEL',(#293),#180,.T.) ;
#311=ADVANCED_FACE('MASTER MODEL',(#310),#299,.T.) ;
#328=ADVANCED_FACE('MASTER MODEL',(#327),#316,.T.) ;
#338=ADVANCED_FACE('MASTER MODEL',(#337),#333,.T.) ;
#369=ADVANCED_FACE('MASTER MODEL',(#368),#343,.T.) ;
#386=ADVANCED_FACE('MASTER MODEL',(#385),#343,.T.) ;
#412=ADVANCED_FACE('MASTER MODEL',(#411),#343,.T.) ;
#429=ADVANCED_FACE('MASTER MODEL',(#428),#343,.T.) ;
#455=ADVANCED_FACE('MASTER MODEL',(#454),#434,.F.) ;
#476=ADVANCED_FACE('MASTER MODEL',(#475),#434,.F.) ;
#509=ADVANCED_FACE('MASTER MODEL',(#508),#481,.T.) ;
#528=ADVANCED_FACE('MASTER MODEL',(#527),#514,.T.) ;
#538=ADVANCED_FACE('MASTER MODEL',(#537),#533,.T.) ;
#556=ADVANCED_FACE('MASTER MODEL',(#547,#555),#543,.F.) ;
#4=APPLICATION_PROTOCOL_DEFINITION('international standard','automotive_design',2010,#1) ;
#55=B_SPLINE_CURVE_WITH_KNOTS('',5,(#56,#57,#58,#59,#60,#61,#62,#63,#64,#65,#66,#67,#68,#69,#70,#71,#72,#73),.UNSPECIFIED.,.F.,.U.,(6,3,3,3,3,6),(0.,29.0456350231,56.0631565493,103.10596491,135.375617914,155.793224373),.UNSPECIFIED.) ;
#133=B_SPLINE_CURVE_WITH_KNOTS('',5,(#134,#135,#136,#137,#138,#139,#140,#141,#142,#143,#144,#145,#146,#147,#148,#149,#150,#151),.UNSPECIFIED.,.F.,.U.,(6,3,3,3,3,6),(0.,29.0456350317,56.0631565617,103.105964924,135.375617926,155.793224377),.UNSPECIFIED.) ;
#24=MANIFOLD_SOLID_BREP('MASTER MODEL',#33) ;
#193=CIRCLE('generated circle',#192,0.75) ;
#207=CIRCLE('generated circle',#206,0.75) ;
#224=CIRCLE('generated circle',#223,0.04) ;
#231=CIRCLE('generated circle',#230,0.04) ;
#238=CIRCLE('generated circle',#237,0.71) ;
#255=CIRCLE('generated circle',#254,0.04) ;
#262=CIRCLE('generated circle',#261,0.71) ;
#269=CIRCLE('generated circle',#268,0.04) ;
#281=CIRCLE('generated circle',#280,0.75) ;
#286=CIRCLE('generated circle',#285,0.75) ;
#303=CIRCLE('generated circle',#302,0.71) ;
#320=CIRCLE('generated circle',#319,0.71) ;
#347=CIRCLE('generated circle',#346,0.165) ;
#361=CIRCLE('generated circle',#360,0.165) ;
#373=CIRCLE('generated circle',#372,0.165) ;
#378=CIRCLE('generated circle',#377,0.165) ;
#390=CIRCLE('generated circle',#389,0.165) ;
#404=CIRCLE('generated circle',#403,0.165) ;
#416=CIRCLE('generated circle',#415,0.165) ;
#421=CIRCLE('generated circle',#420,0.165) ;
#438=CIRCLE('generated circle',#437,0.21875) ;
#445=CIRCLE('generated circle',#444,0.21875) ;
#459=CIRCLE('generated circle',#458,0.21875) ;
#466=CIRCLE('generated circle',#465,0.21875) ;
#492=CIRCLE('generated circle',#491,0.03125) ;
#518=CIRCLE('generated circle',#517,0.03125) ;
#25=COLOUR_RGB('Colour',0.823529411765,0.823529411765,1.) ;
#481=CONICAL_SURFACE('Cone',#480,0.,0.785398163397) ;
#514=CONICAL_SURFACE('Cone',#513,0.,0.785398163397) ;
#180=CYLINDRICAL_SURFACE('generated cylinder',#179,0.75) ;
#343=CYLINDRICAL_SURFACE('generated cylinder',#342,0.165) ;
#220=TOROIDAL_SURFACE('homeo Torus',#219,0.71,0.04) ;
#251=TOROIDAL_SURFACE('homeo Torus',#250,0.71,0.04) ;
#299=TOROIDAL_SURFACE('homeo Torus',#298,0.71,0.04) ;
#316=TOROIDAL_SURFACE('homeo Torus',#315,0.71,0.04) ;
#47=EDGE_CURVE('',#44,#46,#42,.T.) ;
#54=EDGE_CURVE('',#53,#46,#51,.T.) ;
#76=EDGE_CURVE('',#75,#53,#55,.T.) ;
#83=EDGE_CURVE('',#82,#75,#80,.T.) ;
#90=EDGE_CURVE('',#82,#89,#87,.T.) ;
#95=EDGE_CURVE('',#44,#89,#94,.T.) ;
#118=EDGE_CURVE('',#115,#117,#113,.F.) ;
#125=EDGE_CURVE('',#115,#124,#122,.T.) ;
#132=EDGE_CURVE('',#124,#131,#129,.T.) ;
#154=EDGE_CURVE('',#153,#131,#133,.T.) ;
#161=EDGE_CURVE('',#153,#160,#158,.T.) ;
#166=EDGE_CURVE('',#117,#160,#165,.T.) ;
#189=EDGE_CURVE('',#186,#188,#184,.T.) ;
#196=EDGE_CURVE('',#186,#195,#193,.T.) ;
#203=EDGE_CURVE('',#195,#202,#200,.T.) ;
#208=EDGE_CURVE('',#188,#202,#207,.T.) ;
#227=EDGE_CURVE('',#226,#188,#224,.F.) ;
#234=EDGE_CURVE('',#233,#202,#231,.F.) ;
#239=EDGE_CURVE('',#226,#233,#238,.T.) ;
#258=EDGE_CURVE('',#186,#257,#255,.F.) ;
#265=EDGE_CURVE('',#257,#264,#262,.T.) ;
#270=EDGE_CURVE('',#195,#264,#269,.F.) ;
#282=EDGE_CURVE('',#195,#186,#281,.T.) ;
#287=EDGE_CURVE('',#202,#188,#286,.T.) ;
#304=EDGE_CURVE('',#233,#226,#303,.T.) ;
#321=EDGE_CURVE('',#264,#257,#320,.T.) ;
#350=EDGE_CURVE('',#115,#349,#347,.T.) ;
#357=EDGE_CURVE('',#349,#356,#354,.T.) ;
#362=EDGE_CURVE('',#124,#356,#361,.T.) ;
#374=EDGE_CURVE('',#356,#82,#373,.T.) ;
#379=EDGE_CURVE('',#349,#89,#378,.T.) ;
#393=EDGE_CURVE('',#44,#392,#390,.T.) ;
#400=EDGE_CURVE('',#392,#399,#397,.T.) ;
#405=EDGE_CURVE('',#46,#399,#404,.T.) ;
#417=EDGE_CURVE('',#399,#160,#416,.T.) ;
#422=EDGE_CURVE('',#392,#117,#421,.T.) ;
#441=EDGE_CURVE('',#440,#75,#438,.T.) ;
#446=EDGE_CURVE('',#131,#440,#445,.T.) ;
#462=EDGE_CURVE('',#461,#153,#459,.T.) ;
#467=EDGE_CURVE('',#53,#461,#466,.T.) ;
#488=EDGE_CURVE('',#487,#440,#485,.T.) ;
#495=EDGE_CURVE('',#494,#487,#492,.T.) ;
#500=EDGE_CURVE('',#494,#461,#499,.T.) ;
#519=EDGE_CURVE('',#487,#494,#518,.T.) ;
#96=EDGE_LOOP('',(#97,#98,#99,#100,#101,#102)) ;
#167=EDGE_LOOP('',(#168,#169,#170,#171,#172,#173)) ;
#209=EDGE_LOOP('',(#210,#211,#212,#213)) ;
#240=EDGE_LOOP('',(#241,#242,#243,#244)) ;
#271=EDGE_LOOP('',(#272,#273,#274,#275)) ;
#288=EDGE_LOOP('',(#289,#290,#291,#292)) ;
#305=EDGE_LOOP('',(#306,#307,#308,#309)) ;
#322=EDGE_LOOP('',(#323,#324,#325,#326)) ;
#334=EDGE_LOOP('',(#335,#336)) ;
#363=EDGE_LOOP('',(#364,#365,#366,#367)) ;
#380=EDGE_LOOP('',(#381,#382,#383,#384)) ;
#406=EDGE_LOOP('',(#407,#408,#409,#410)) ;
#423=EDGE_LOOP('',(#424,#425,#426,#427)) ;
#447=EDGE_LOOP('',(#448,#449,#450,#451,#452,#453)) ;
#468=EDGE_LOOP('',(#469,#470,#471,#472,#473,#474)) ;
#501=EDGE_LOOP('',(#502,#503,#504,#505,#506,#507)) ;
#520=EDGE_LOOP('',(#521,#522,#523,#524,#525,#526)) ;
#534=EDGE_LOOP('',(#535,#536)) ;
#544=EDGE_LOOP('',(#545,#546)) ;
#548=EDGE_LOOP('',(#549,#550,#551,#552,#553,#554)) ;
#103=FACE_OUTER_BOUND('',#96,.T.) ;
#174=FACE_OUTER_BOUND('',#167,.T.) ;
#214=FACE_OUTER_BOUND('',#209,.T.) ;
#245=FACE_OUTER_BOUND('',#240,.T.) ;
#276=FACE_OUTER_BOUND('',#271,.T.) ;
#293=FACE_OUTER_BOUND('',#288,.T.) ;
#310=FACE_OUTER_BOUND('',#305,.T.) ;
#327=FACE_OUTER_BOUND('',#322,.T.) ;
#337=FACE_OUTER_BOUND('',#334,.T.) ;
#368=FACE_OUTER_BOUND('',#363,.T.) ;
#385=FACE_OUTER_BOUND('',#380,.T.) ;
#411=FACE_OUTER_BOUND('',#406,.T.) ;
#428=FACE_OUTER_BOUND('',#423,.T.) ;
#454=FACE_OUTER_BOUND('',#447,.T.) ;
#475=FACE_OUTER_BOUND('',#468,.T.) ;
#508=FACE_OUTER_BOUND('',#501,.T.) ;
#527=FACE_OUTER_BOUND('',#520,.T.) ;
#537=FACE_OUTER_BOUND('',#534,.T.) ;
#547=FACE_OUTER_BOUND('',#544,.T.) ;
#15=LENGTH_MEASURE_WITH_UNIT(LENGTH_MEASURE(25.4),#12) ;
#42=LINE('Line',#39,#41) ;
#51=LINE('Line',#48,#50) ;
#80=LINE('Line',#77,#79) ;
#87=LINE('Line',#84,#86) ;
#94=LINE('Line',#91,#93) ;
#113=LINE('Line',#110,#112) ;
#122=LINE('Line',#119,#121) ;
#129=LINE('Line',#126,#128) ;
#158=LINE('Line',#155,#157) ;
#165=LINE('Line',#162,#164) ;
#184=LINE('Line',#181,#183) ;
#200=LINE('Line',#197,#199) ;
#354=LINE('Line',#351,#353) ;
#397=LINE('Line',#394,#396) ;
#485=LINE('Line',#482,#484) ;
#499=LINE('Line',#496,#498) ;
#38=PLANE('',#37) ;
#109=PLANE('',#108) ;
#333=PLANE('',#332) ;
#434=PLANE('',#433) ;
#533=PLANE('',#532) ;
#543=PLANE('',#542) ;
#9=PRODUCT_CATEGORY_RELATIONSHIP(' ',' ',#7,#8) ;
#6=PRODUCT_DEFINITION_FORMATION_WITH_SPECIFIED_SOURCE('1',' ',#5,.NOT_KNOWN.) ;
#23=SHAPE_DEFINITION_REPRESENTATION(#11,#22) ;
#44=VERTEX_POINT('',#43) ;
#46=VERTEX_POINT('',#45) ;
#53=VERTEX_POINT('',#52) ;
#75=VERTEX_POINT('',#74) ;
#82=VERTEX_POINT('',#81) ;
#89=VERTEX_POINT('',#88) ;
#115=VERTEX_POINT('',#114) ;
#117=VERTEX_POINT('',#116) ;
#124=VERTEX_POINT('',#123) ;
#131=VERTEX_POINT('',#130) ;
#153=VERTEX_POINT('',#152) ;
#160=VERTEX_POINT('',#159) ;
#186=VERTEX_POINT('',#185) ;
#188=VERTEX_POINT('',#187) ;
#195=VERTEX_POINT('',#194) ;
#202=VERTEX_POINT('',#201) ;
#226=VERTEX_POINT('',#225) ;
#233=VERTEX_POINT('',#232) ;
#257=VERTEX_POINT('',#256) ;
#264=VERTEX_POINT('',#263) ;
#349=VERTEX_POINT('',#348) ;
#356=VERTEX_POINT('',#355) ;
#392=VERTEX_POINT('',#391) ;
#399=VERTEX_POINT('',#398) ;
#440=VERTEX_POINT('',#439) ;
#461=VERTEX_POINT('',#460) ;
#487=VERTEX_POINT('',#486) ;
#494=VERTEX_POINT('',#493) ;
#12=(LENGTH_UNIT()NAMED_UNIT(*)SI_UNIT(.MILLI.,.METRE.)) ;
#13=(NAMED_UNIT(*)PLANE_ANGLE_UNIT()SI_UNIT($,.RADIAN.)) ;
#14=(NAMED_UNIT(*)SI_UNIT($,.STERADIAN.)SOLID_ANGLE_UNIT()) ;
#17=(CONVERSION_BASED_UNIT('INCH',#15)LENGTH_UNIT()NAMED_UNIT(#16)) ;
#19=(GEOMETRIC_REPRESENTATION_CONTEXT(3)GLOBAL_UNCERTAINTY_ASSIGNED_CONTEXT((#18))GLOBAL_UNIT_ASSIGNED_CONTEXT((#17,#13,#14))REPRESENTATION_CONTEXT(' ',' ')) ;
ENDSEC;
END-ISO-10303-21;
